ISO-10303-21;
HEADER;
/* Generated by software containing ST-Developer
 * from STEP Tools, Inc. (www.steptools.com) 
 */

FILE_DESCRIPTION(
/* description */ ('PROXIMITY SENSOR (MOULDED) - M12'),
/* implementation_level */ '2;1');

FILE_NAME(
/* name */ 
'C:\\$WorkingFolder\\WORKSPACE\\Drawings\\AF\\AF0000\\AF0140\\AF0140.s
tp',
/* time_stamp */ '2017-01-09T15:53:42+00:00',
/* author */ ('michaelz'),
/* organization */ (''),
/* preprocessor_version */ 'ST-DEVELOPER v15.6',
/* originating_system */ 'Autodesk Inventor 2015',
/* authorisation */ '');

FILE_SCHEMA (('AUTOMOTIVE_DESIGN { 1 0 10303 214 3 1 1 }'));
ENDSEC;

DATA;
#10=MECHANICAL_DESIGN_GEOMETRIC_PRESENTATION_REPRESENTATION('',(#278,#279,
#280,#281,#282,#283),#542);
#11=SHAPE_REPRESENTATION_RELATIONSHIP('SRR','None',#551,#12);
#12=ADVANCED_BREP_SHAPE_REPRESENTATION($,(#13),#541);
#13=MANIFOLD_SOLID_BREP('Solid1',#309);
#14=LINE('',#483,#22);
#15=LINE('',#485,#23);
#16=LINE('',#487,#24);
#17=LINE('',#488,#25);
#18=LINE('',#496,#26);
#19=LINE('',#498,#27);
#20=LINE('',#500,#28);
#21=LINE('',#501,#29);
#22=VECTOR('',#387,5.45);
#23=VECTOR('',#388,6.63324958071084);
#24=VECTOR('',#389,5.45);
#25=VECTOR('',#390,6.63324958071084);
#26=VECTOR('',#401,5.45);
#27=VECTOR('',#402,6.63324958071082);
#28=VECTOR('',#403,5.45);
#29=VECTOR('',#404,6.63324958071082);
#30=CONICAL_SURFACE('',#319,7.,11.3099324740202);
#31=CONICAL_SURFACE('',#336,4.72618435853525,24.0000000000001);
#32=CONICAL_SURFACE('',#348,5.5,60.0000000000001);
#33=PLANE('',#316);
#34=PLANE('',#324);
#35=PLANE('',#325);
#36=PLANE('',#327);
#37=PLANE('',#329);
#38=PLANE('',#330);
#39=PLANE('',#332);
#40=PLANE('',#341);
#41=PLANE('',#344);
#42=PLANE('',#351);
#43=PLANE('',#355);
#44=PLANE('',#356);
#45=CYLINDRICAL_SURFACE('',#314,8.);
#46=CYLINDRICAL_SURFACE('',#322,2.95);
#47=CYLINDRICAL_SURFACE('',#334,6.00000000000001);
#48=CYLINDRICAL_SURFACE('',#339,5.);
#49=CYLINDRICAL_SURFACE('',#342,2.95);
#50=CYLINDRICAL_SURFACE('',#346,5.);
#51=CYLINDRICAL_SURFACE('',#349,2.35000000000001);
#52=CYLINDRICAL_SURFACE('',#353,1.75);
#53=FACE_BOUND('',#98,.T.);
#54=FACE_BOUND('',#100,.T.);
#55=FACE_BOUND('',#102,.T.);
#56=FACE_BOUND('',#104,.T.);
#57=FACE_BOUND('',#106,.T.);
#58=FACE_BOUND('',#108,.T.);
#59=FACE_BOUND('',#116,.T.);
#60=FACE_BOUND('',#117,.T.);
#61=FACE_BOUND('',#118,.T.);
#62=FACE_BOUND('',#120,.T.);
#63=FACE_BOUND('',#122,.T.);
#64=FACE_BOUND('',#124,.T.);
#65=FACE_BOUND('',#126,.T.);
#66=FACE_BOUND('',#128,.T.);
#67=FACE_BOUND('',#130,.T.);
#68=FACE_BOUND('',#132,.T.);
#69=FACE_BOUND('',#134,.T.);
#70=FACE_BOUND('',#136,.T.);
#71=FACE_BOUND('',#138,.T.);
#72=FACE_OUTER_BOUND('',#97,.T.);
#73=FACE_OUTER_BOUND('',#99,.T.);
#74=FACE_OUTER_BOUND('',#101,.T.);
#75=FACE_OUTER_BOUND('',#103,.T.);
#76=FACE_OUTER_BOUND('',#105,.T.);
#77=FACE_OUTER_BOUND('',#107,.T.);
#78=FACE_OUTER_BOUND('',#109,.T.);
#79=FACE_OUTER_BOUND('',#110,.T.);
#80=FACE_OUTER_BOUND('',#111,.T.);
#81=FACE_OUTER_BOUND('',#112,.T.);
#82=FACE_OUTER_BOUND('',#113,.T.);
#83=FACE_OUTER_BOUND('',#114,.T.);
#84=FACE_OUTER_BOUND('',#115,.T.);
#85=FACE_OUTER_BOUND('',#119,.T.);
#86=FACE_OUTER_BOUND('',#121,.T.);
#87=FACE_OUTER_BOUND('',#123,.T.);
#88=FACE_OUTER_BOUND('',#125,.T.);
#89=FACE_OUTER_BOUND('',#127,.T.);
#90=FACE_OUTER_BOUND('',#129,.T.);
#91=FACE_OUTER_BOUND('',#131,.T.);
#92=FACE_OUTER_BOUND('',#133,.T.);
#93=FACE_OUTER_BOUND('',#135,.T.);
#94=FACE_OUTER_BOUND('',#137,.T.);
#95=FACE_OUTER_BOUND('',#139,.T.);
#96=FACE_OUTER_BOUND('',#140,.T.);
#97=EDGE_LOOP('',(#216));
#98=EDGE_LOOP('',(#217));
#99=EDGE_LOOP('',(#218));
#100=EDGE_LOOP('',(#219));
#101=EDGE_LOOP('',(#220));
#102=EDGE_LOOP('',(#221));
#103=EDGE_LOOP('',(#222));
#104=EDGE_LOOP('',(#223));
#105=EDGE_LOOP('',(#224));
#106=EDGE_LOOP('',(#225));
#107=EDGE_LOOP('',(#226));
#108=EDGE_LOOP('',(#227));
#109=EDGE_LOOP('',(#228,#229,#230,#231));
#110=EDGE_LOOP('',(#232,#233));
#111=EDGE_LOOP('',(#234,#235));
#112=EDGE_LOOP('',(#236,#237,#238,#239));
#113=EDGE_LOOP('',(#240,#241));
#114=EDGE_LOOP('',(#242,#243));
#115=EDGE_LOOP('',(#244));
#116=EDGE_LOOP('',(#245,#246,#247,#248));
#117=EDGE_LOOP('',(#249,#250,#251,#252));
#118=EDGE_LOOP('',(#253));
#119=EDGE_LOOP('',(#254));
#120=EDGE_LOOP('',(#255));
#121=EDGE_LOOP('',(#256));
#122=EDGE_LOOP('',(#257));
#123=EDGE_LOOP('',(#258));
#124=EDGE_LOOP('',(#259));
#125=EDGE_LOOP('',(#260));
#126=EDGE_LOOP('',(#261));
#127=EDGE_LOOP('',(#262));
#128=EDGE_LOOP('',(#263));
#129=EDGE_LOOP('',(#264));
#130=EDGE_LOOP('',(#265));
#131=EDGE_LOOP('',(#266));
#132=EDGE_LOOP('',(#267));
#133=EDGE_LOOP('',(#268));
#134=EDGE_LOOP('',(#269));
#135=EDGE_LOOP('',(#270));
#136=EDGE_LOOP('',(#271));
#137=EDGE_LOOP('',(#272));
#138=EDGE_LOOP('',(#273));
#139=EDGE_LOOP('',(#274));
#140=EDGE_LOOP('',(#275));
#141=CIRCLE('',#312,8.);
#142=CIRCLE('',#313,6.00000000000001);
#143=CIRCLE('',#315,8.);
#144=CIRCLE('',#317,6.);
#145=CIRCLE('',#318,2.35000000000001);
#146=CIRCLE('',#321,2.95);
#147=CIRCLE('',#323,2.95);
#148=CIRCLE('',#326,6.00000000000001);
#149=CIRCLE('',#328,6.00000000000001);
#150=CIRCLE('',#331,6.00000000000001);
#151=CIRCLE('',#333,6.00000000000001);
#152=CIRCLE('',#335,6.);
#153=CIRCLE('',#337,5.);
#154=CIRCLE('',#338,4.4523687170705);
#155=CIRCLE('',#340,5.);
#156=CIRCLE('',#343,2.95);
#157=CIRCLE('',#345,5.);
#158=CIRCLE('',#347,5.);
#159=CIRCLE('',#350,2.35000000000001);
#160=CIRCLE('',#352,1.75);
#161=CIRCLE('',#354,1.75);
#162=VERTEX_POINT('',#461);
#163=VERTEX_POINT('',#463);
#164=VERTEX_POINT('',#466);
#165=VERTEX_POINT('',#469);
#166=VERTEX_POINT('',#471);
#167=VERTEX_POINT('',#475);
#168=VERTEX_POINT('',#478);
#169=VERTEX_POINT('',#481);
#170=VERTEX_POINT('',#482);
#171=VERTEX_POINT('',#484);
#172=VERTEX_POINT('',#486);
#173=VERTEX_POINT('',#494);
#174=VERTEX_POINT('',#495);
#175=VERTEX_POINT('',#497);
#176=VERTEX_POINT('',#499);
#177=VERTEX_POINT('',#507);
#178=VERTEX_POINT('',#510);
#179=VERTEX_POINT('',#512);
#180=VERTEX_POINT('',#515);
#181=VERTEX_POINT('',#519);
#182=VERTEX_POINT('',#522);
#183=VERTEX_POINT('',#525);
#184=VERTEX_POINT('',#529);
#185=VERTEX_POINT('',#532);
#186=VERTEX_POINT('',#535);
#187=EDGE_CURVE('',#162,#162,#141,.T.);
#188=EDGE_CURVE('',#163,#163,#142,.T.);
#189=EDGE_CURVE('',#164,#164,#143,.T.);
#190=EDGE_CURVE('',#165,#165,#144,.T.);
#191=EDGE_CURVE('',#166,#166,#145,.T.);
#192=EDGE_CURVE('',#167,#167,#146,.T.);
#193=EDGE_CURVE('',#168,#168,#147,.T.);
#194=EDGE_CURVE('',#169,#170,#14,.T.);
#195=EDGE_CURVE('',#171,#169,#15,.T.);
#196=EDGE_CURVE('',#172,#171,#16,.T.);
#197=EDGE_CURVE('',#172,#170,#17,.T.);
#198=EDGE_CURVE('',#170,#172,#148,.T.);
#199=EDGE_CURVE('',#171,#169,#149,.T.);
#200=EDGE_CURVE('',#173,#174,#18,.T.);
#201=EDGE_CURVE('',#173,#175,#19,.T.);
#202=EDGE_CURVE('',#176,#175,#20,.T.);
#203=EDGE_CURVE('',#174,#176,#21,.T.);
#204=EDGE_CURVE('',#174,#176,#150,.T.);
#205=EDGE_CURVE('',#175,#173,#151,.T.);
#206=EDGE_CURVE('',#177,#177,#152,.T.);
#207=EDGE_CURVE('',#178,#178,#153,.T.);
#208=EDGE_CURVE('',#179,#179,#154,.T.);
#209=EDGE_CURVE('',#180,#180,#155,.T.);
#210=EDGE_CURVE('',#181,#181,#156,.T.);
#211=EDGE_CURVE('',#182,#182,#157,.T.);
#212=EDGE_CURVE('',#183,#183,#158,.T.);
#213=EDGE_CURVE('',#184,#184,#159,.T.);
#214=EDGE_CURVE('',#185,#185,#160,.T.);
#215=EDGE_CURVE('',#186,#186,#161,.T.);
#216=ORIENTED_EDGE('',*,*,#187,.T.);
#217=ORIENTED_EDGE('',*,*,#188,.F.);
#218=ORIENTED_EDGE('',*,*,#189,.T.);
#219=ORIENTED_EDGE('',*,*,#187,.F.);
#220=ORIENTED_EDGE('',*,*,#190,.F.);
#221=ORIENTED_EDGE('',*,*,#191,.F.);
#222=ORIENTED_EDGE('',*,*,#189,.F.);
#223=ORIENTED_EDGE('',*,*,#190,.T.);
#224=ORIENTED_EDGE('',*,*,#192,.T.);
#225=ORIENTED_EDGE('',*,*,#192,.F.);
#226=ORIENTED_EDGE('',*,*,#193,.T.);
#227=ORIENTED_EDGE('',*,*,#192,.F.);
#228=ORIENTED_EDGE('',*,*,#194,.F.);
#229=ORIENTED_EDGE('',*,*,#195,.F.);
#230=ORIENTED_EDGE('',*,*,#196,.F.);
#231=ORIENTED_EDGE('',*,*,#197,.T.);
#232=ORIENTED_EDGE('',*,*,#198,.F.);
#233=ORIENTED_EDGE('',*,*,#197,.F.);
#234=ORIENTED_EDGE('',*,*,#199,.F.);
#235=ORIENTED_EDGE('',*,*,#195,.T.);
#236=ORIENTED_EDGE('',*,*,#200,.F.);
#237=ORIENTED_EDGE('',*,*,#201,.T.);
#238=ORIENTED_EDGE('',*,*,#202,.F.);
#239=ORIENTED_EDGE('',*,*,#203,.F.);
#240=ORIENTED_EDGE('',*,*,#204,.F.);
#241=ORIENTED_EDGE('',*,*,#203,.T.);
#242=ORIENTED_EDGE('',*,*,#205,.F.);
#243=ORIENTED_EDGE('',*,*,#201,.F.);
#244=ORIENTED_EDGE('',*,*,#188,.T.);
#245=ORIENTED_EDGE('',*,*,#198,.T.);
#246=ORIENTED_EDGE('',*,*,#196,.T.);
#247=ORIENTED_EDGE('',*,*,#199,.T.);
#248=ORIENTED_EDGE('',*,*,#194,.T.);
#249=ORIENTED_EDGE('',*,*,#204,.T.);
#250=ORIENTED_EDGE('',*,*,#202,.T.);
#251=ORIENTED_EDGE('',*,*,#205,.T.);
#252=ORIENTED_EDGE('',*,*,#200,.T.);
#253=ORIENTED_EDGE('',*,*,#206,.T.);
#254=ORIENTED_EDGE('',*,*,#207,.F.);
#255=ORIENTED_EDGE('',*,*,#208,.T.);
#256=ORIENTED_EDGE('',*,*,#209,.F.);
#257=ORIENTED_EDGE('',*,*,#207,.T.);
#258=ORIENTED_EDGE('',*,*,#209,.T.);
#259=ORIENTED_EDGE('',*,*,#193,.F.);
#260=ORIENTED_EDGE('',*,*,#192,.T.);
#261=ORIENTED_EDGE('',*,*,#210,.F.);
#262=ORIENTED_EDGE('',*,*,#211,.F.);
#263=ORIENTED_EDGE('',*,*,#210,.T.);
#264=ORIENTED_EDGE('',*,*,#212,.F.);
#265=ORIENTED_EDGE('',*,*,#211,.T.);
#266=ORIENTED_EDGE('',*,*,#206,.F.);
#267=ORIENTED_EDGE('',*,*,#212,.T.);
#268=ORIENTED_EDGE('',*,*,#191,.T.);
#269=ORIENTED_EDGE('',*,*,#213,.F.);
#270=ORIENTED_EDGE('',*,*,#213,.T.);
#271=ORIENTED_EDGE('',*,*,#214,.F.);
#272=ORIENTED_EDGE('',*,*,#215,.F.);
#273=ORIENTED_EDGE('',*,*,#214,.T.);
#274=ORIENTED_EDGE('',*,*,#215,.T.);
#275=ORIENTED_EDGE('',*,*,#208,.F.);
#276=TOROIDAL_SURFACE('',#311,6.,2.);
#277=TOROIDAL_SURFACE('',#320,4.15,1.2);
#278=STYLED_ITEM('',(#561),#284);
#279=STYLED_ITEM('',(#562),#285);
#280=STYLED_ITEM('',(#562),#286);
#281=STYLED_ITEM('',(#562),#287);
#282=STYLED_ITEM('',(#562),#288);
#283=STYLED_ITEM('',(#560),#13);
#284=ADVANCED_FACE('',(#72,#53),#276,.T.);
#285=ADVANCED_FACE('',(#73,#54),#45,.T.);
#286=ADVANCED_FACE('',(#74,#55),#33,.T.);
#287=ADVANCED_FACE('',(#75,#56),#30,.T.);
#288=ADVANCED_FACE('',(#76,#57),#277,.T.);
#289=ADVANCED_FACE('',(#77,#58),#46,.T.);
#290=ADVANCED_FACE('',(#78),#34,.F.);
#291=ADVANCED_FACE('',(#79),#35,.F.);
#292=ADVANCED_FACE('',(#80),#36,.F.);
#293=ADVANCED_FACE('',(#81),#37,.F.);
#294=ADVANCED_FACE('',(#82),#38,.F.);
#295=ADVANCED_FACE('',(#83),#39,.F.);
#296=ADVANCED_FACE('',(#84,#59,#60,#61),#47,.T.);
#297=ADVANCED_FACE('',(#85,#62),#31,.T.);
#298=ADVANCED_FACE('',(#86,#63),#48,.T.);
#299=ADVANCED_FACE('',(#87,#64),#40,.T.);
#300=ADVANCED_FACE('',(#88,#65),#49,.T.);
#301=ADVANCED_FACE('',(#89,#66),#41,.T.);
#302=ADVANCED_FACE('',(#90,#67),#50,.T.);
#303=ADVANCED_FACE('',(#91,#68),#32,.T.);
#304=ADVANCED_FACE('',(#92,#69),#51,.T.);
#305=ADVANCED_FACE('',(#93,#70),#42,.T.);
#306=ADVANCED_FACE('',(#94,#71),#52,.T.);
#307=ADVANCED_FACE('',(#95),#43,.T.);
#308=ADVANCED_FACE('',(#96),#44,.T.);
#309=CLOSED_SHELL('',(#284,#285,#286,#287,#288,#289,#290,#291,#292,#293,
#294,#295,#296,#297,#298,#299,#300,#301,#302,#303,#304,#305,#306,#307,#308));
#310=AXIS2_PLACEMENT_3D('placement',#459,#357,#358);
#311=AXIS2_PLACEMENT_3D('',#460,#359,#360);
#312=AXIS2_PLACEMENT_3D('',#462,#361,#362);
#313=AXIS2_PLACEMENT_3D('',#464,#363,#364);
#314=AXIS2_PLACEMENT_3D('',#465,#365,#366);
#315=AXIS2_PLACEMENT_3D('',#467,#367,#368);
#316=AXIS2_PLACEMENT_3D('',#468,#369,#370);
#317=AXIS2_PLACEMENT_3D('',#470,#371,#372);
#318=AXIS2_PLACEMENT_3D('',#472,#373,#374);
#319=AXIS2_PLACEMENT_3D('',#473,#375,#376);
#320=AXIS2_PLACEMENT_3D('',#474,#377,#378);
#321=AXIS2_PLACEMENT_3D('',#476,#379,#380);
#322=AXIS2_PLACEMENT_3D('',#477,#381,#382);
#323=AXIS2_PLACEMENT_3D('',#479,#383,#384);
#324=AXIS2_PLACEMENT_3D('',#480,#385,#386);
#325=AXIS2_PLACEMENT_3D('',#489,#391,#392);
#326=AXIS2_PLACEMENT_3D('',#490,#393,#394);
#327=AXIS2_PLACEMENT_3D('',#491,#395,#396);
#328=AXIS2_PLACEMENT_3D('',#492,#397,#398);
#329=AXIS2_PLACEMENT_3D('',#493,#399,#400);
#330=AXIS2_PLACEMENT_3D('',#502,#405,#406);
#331=AXIS2_PLACEMENT_3D('',#503,#407,#408);
#332=AXIS2_PLACEMENT_3D('',#504,#409,#410);
#333=AXIS2_PLACEMENT_3D('',#505,#411,#412);
#334=AXIS2_PLACEMENT_3D('',#506,#413,#414);
#335=AXIS2_PLACEMENT_3D('',#508,#415,#416);
#336=AXIS2_PLACEMENT_3D('',#509,#417,#418);
#337=AXIS2_PLACEMENT_3D('',#511,#419,#420);
#338=AXIS2_PLACEMENT_3D('',#513,#421,#422);
#339=AXIS2_PLACEMENT_3D('',#514,#423,#424);
#340=AXIS2_PLACEMENT_3D('',#516,#425,#426);
#341=AXIS2_PLACEMENT_3D('',#517,#427,#428);
#342=AXIS2_PLACEMENT_3D('',#518,#429,#430);
#343=AXIS2_PLACEMENT_3D('',#520,#431,#432);
#344=AXIS2_PLACEMENT_3D('',#521,#433,#434);
#345=AXIS2_PLACEMENT_3D('',#523,#435,#436);
#346=AXIS2_PLACEMENT_3D('',#524,#437,#438);
#347=AXIS2_PLACEMENT_3D('',#526,#439,#440);
#348=AXIS2_PLACEMENT_3D('',#527,#441,#442);
#349=AXIS2_PLACEMENT_3D('',#528,#443,#444);
#350=AXIS2_PLACEMENT_3D('',#530,#445,#446);
#351=AXIS2_PLACEMENT_3D('',#531,#447,#448);
#352=AXIS2_PLACEMENT_3D('',#533,#449,#450);
#353=AXIS2_PLACEMENT_3D('',#534,#451,#452);
#354=AXIS2_PLACEMENT_3D('',#536,#453,#454);
#355=AXIS2_PLACEMENT_3D('',#537,#455,#456);
#356=AXIS2_PLACEMENT_3D('',#538,#457,#458);
#357=DIRECTION('axis',(0.,0.,1.));
#358=DIRECTION('refdir',(1.,0.,0.));
#359=DIRECTION('center_axis',(-1.,0.,0.));
#360=DIRECTION('ref_axis',(0.,0.,1.));
#361=DIRECTION('center_axis',(-1.,0.,0.));
#362=DIRECTION('ref_axis',(0.,1.22464679914735E-16,-1.));
#363=DIRECTION('center_axis',(-1.,0.,0.));
#364=DIRECTION('ref_axis',(0.,1.,0.));
#365=DIRECTION('center_axis',(-1.,0.,0.));
#366=DIRECTION('ref_axis',(0.,0.,1.));
#367=DIRECTION('center_axis',(-1.,0.,0.));
#368=DIRECTION('ref_axis',(0.,0.,1.));
#369=DIRECTION('center_axis',(1.,0.,0.));
#370=DIRECTION('ref_axis',(0.,0.,-1.));
#371=DIRECTION('center_axis',(-1.,0.,0.));
#372=DIRECTION('ref_axis',(0.,0.,1.));
#373=DIRECTION('center_axis',(1.,0.,0.));
#374=DIRECTION('ref_axis',(0.,1.,0.));
#375=DIRECTION('center_axis',(-1.,0.,0.));
#376=DIRECTION('ref_axis',(0.,0.,1.));
#377=DIRECTION('center_axis',(-1.,0.,-8.80029032375049E-17));
#378=DIRECTION('ref_axis',(0.,0.,1.));
#379=DIRECTION('center_axis',(1.,0.,0.));
#380=DIRECTION('ref_axis',(0.,1.,0.));
#381=DIRECTION('center_axis',(1.,0.,0.));
#382=DIRECTION('ref_axis',(0.,1.,0.));
#383=DIRECTION('center_axis',(1.,0.,0.));
#384=DIRECTION('ref_axis',(0.,1.,0.));
#385=DIRECTION('center_axis',(-1.01855323360106E-16,0.,-1.));
#386=DIRECTION('ref_axis',(-1.,0.,8.88178419700125E-17));
#387=DIRECTION('',(1.,0.,0.));
#388=DIRECTION('',(0.,1.,0.));
#389=DIRECTION('',(-1.,0.,0.));
#390=DIRECTION('',(0.,1.,0.));
#391=DIRECTION('center_axis',(1.,0.,0.));
#392=DIRECTION('ref_axis',(0.,0.,-1.));
#393=DIRECTION('center_axis',(1.,0.,0.));
#394=DIRECTION('ref_axis',(0.,1.,0.));
#395=DIRECTION('center_axis',(-1.,0.,0.));
#396=DIRECTION('ref_axis',(0.,0.,1.));
#397=DIRECTION('center_axis',(-1.,0.,0.));
#398=DIRECTION('ref_axis',(0.,1.,0.));
#399=DIRECTION('center_axis',(0.,0.,1.));
#400=DIRECTION('ref_axis',(1.,0.,0.));
#401=DIRECTION('',(1.,0.,0.));
#402=DIRECTION('',(0.,1.,0.));
#403=DIRECTION('',(-1.,0.,0.));
#404=DIRECTION('',(0.,1.,0.));
#405=DIRECTION('center_axis',(1.,0.,0.));
#406=DIRECTION('ref_axis',(0.,0.,-1.));
#407=DIRECTION('center_axis',(1.,0.,0.));
#408=DIRECTION('ref_axis',(0.,1.,0.));
#409=DIRECTION('center_axis',(-1.,0.,0.));
#410=DIRECTION('ref_axis',(0.,0.,1.));
#411=DIRECTION('center_axis',(-1.,0.,0.));
#412=DIRECTION('ref_axis',(0.,1.,0.));
#413=DIRECTION('center_axis',(1.,0.,0.));
#414=DIRECTION('ref_axis',(0.,1.,0.));
#415=DIRECTION('center_axis',(1.,0.,0.));
#416=DIRECTION('ref_axis',(0.,1.,0.));
#417=DIRECTION('center_axis',(1.,0.,0.));
#418=DIRECTION('ref_axis',(0.,1.,0.));
#419=DIRECTION('center_axis',(1.,0.,0.));
#420=DIRECTION('ref_axis',(0.,1.,0.));
#421=DIRECTION('center_axis',(1.,0.,0.));
#422=DIRECTION('ref_axis',(0.,1.,0.));
#423=DIRECTION('center_axis',(1.,0.,0.));
#424=DIRECTION('ref_axis',(0.,1.,0.));
#425=DIRECTION('center_axis',(1.,0.,0.));
#426=DIRECTION('ref_axis',(0.,1.,0.));
#427=DIRECTION('center_axis',(1.,0.,0.));
#428=DIRECTION('ref_axis',(0.,0.,-1.));
#429=DIRECTION('center_axis',(1.,0.,0.));
#430=DIRECTION('ref_axis',(0.,1.,0.));
#431=DIRECTION('center_axis',(1.,0.,0.));
#432=DIRECTION('ref_axis',(0.,1.,0.));
#433=DIRECTION('center_axis',(-1.,0.,0.));
#434=DIRECTION('ref_axis',(0.,0.,1.));
#435=DIRECTION('center_axis',(1.,0.,0.));
#436=DIRECTION('ref_axis',(0.,1.,0.));
#437=DIRECTION('center_axis',(1.,0.,0.));
#438=DIRECTION('ref_axis',(0.,1.,0.));
#439=DIRECTION('center_axis',(1.,0.,0.));
#440=DIRECTION('ref_axis',(0.,1.,0.));
#441=DIRECTION('center_axis',(1.,0.,0.));
#442=DIRECTION('ref_axis',(0.,1.,0.));
#443=DIRECTION('center_axis',(1.,0.,0.));
#444=DIRECTION('ref_axis',(0.,1.,0.));
#445=DIRECTION('center_axis',(1.,0.,0.));
#446=DIRECTION('ref_axis',(0.,1.,0.));
#447=DIRECTION('center_axis',(1.,0.,0.));
#448=DIRECTION('ref_axis',(0.,0.,-1.));
#449=DIRECTION('center_axis',(1.,0.,0.));
#450=DIRECTION('ref_axis',(0.,1.,0.));
#451=DIRECTION('center_axis',(1.,0.,0.));
#452=DIRECTION('ref_axis',(0.,1.,0.));
#453=DIRECTION('center_axis',(1.,0.,0.));
#454=DIRECTION('ref_axis',(0.,1.,0.));
#455=DIRECTION('center_axis',(1.,0.,0.));
#456=DIRECTION('ref_axis',(0.,0.,-1.));
#457=DIRECTION('center_axis',(-1.,0.,0.));
#458=DIRECTION('ref_axis',(0.,0.,1.));
#459=CARTESIAN_POINT('',(0.,0.,0.));
#460=CARTESIAN_POINT('Origin',(51.,0.,0.));
#461=CARTESIAN_POINT('',(51.,0.,8.));
#462=CARTESIAN_POINT('Origin',(51.,0.,0.));
#463=CARTESIAN_POINT('',(49.,0.,6.));
#464=CARTESIAN_POINT('Origin',(49.,0.,0.));
#465=CARTESIAN_POINT('Origin',(56.5,0.,0.));
#466=CARTESIAN_POINT('',(64.,0.,8.));
#467=CARTESIAN_POINT('Origin',(64.,0.,0.));
#468=CARTESIAN_POINT('Origin',(74.,0.,3.));
#469=CARTESIAN_POINT('',(74.,0.,6.));
#470=CARTESIAN_POINT('Origin',(74.,0.,0.));
#471=CARTESIAN_POINT('',(74.,-2.35000000000001,-2.87791997799629E-16));
#472=CARTESIAN_POINT('Origin',(74.,0.,0.));
#473=CARTESIAN_POINT('Origin',(69.,0.,0.));
#474=CARTESIAN_POINT('Origin',(8.75,0.,-5.55111512312578E-16));
#475=CARTESIAN_POINT('',(8.75,-2.95,-9.16382318061047E-16));
#476=CARTESIAN_POINT('Origin',(8.75,0.,-5.55111512312578E-16));
#477=CARTESIAN_POINT('Origin',(8.75,0.,0.));
#478=CARTESIAN_POINT('',(7.4,2.95,0.));
#479=CARTESIAN_POINT('Origin',(7.4,0.,0.));
#480=CARTESIAN_POINT('Origin',(41.,0.,4.99999999999999));
#481=CARTESIAN_POINT('',(41.,3.31662479035542,4.99999999999999));
#482=CARTESIAN_POINT('',(46.45,3.31662479035542,4.99999999999999));
#483=CARTESIAN_POINT('',(31.9136751345948,3.31662479035542,5.));
#484=CARTESIAN_POINT('',(41.,-3.31662479035542,4.99999999999999));
#485=CARTESIAN_POINT('',(41.,0.,4.99999999999999));
#486=CARTESIAN_POINT('',(46.45,-3.31662479035542,4.99999999999999));
#487=CARTESIAN_POINT('',(31.9136751345948,-3.31662479035542,5.));
#488=CARTESIAN_POINT('',(46.45,0.,4.99999999999999));
#489=CARTESIAN_POINT('Origin',(46.45,0.,4.99999999999999));
#490=CARTESIAN_POINT('Origin',(46.45,0.,0.));
#491=CARTESIAN_POINT('Origin',(41.,0.,6.00000000000001));
#492=CARTESIAN_POINT('Origin',(41.,0.,0.));
#493=CARTESIAN_POINT('Origin',(46.45,0.,-5.));
#494=CARTESIAN_POINT('',(41.,-3.31662479035541,-5.));
#495=CARTESIAN_POINT('',(46.45,-3.31662479035541,-5.));
#496=CARTESIAN_POINT('',(31.9136751345948,-3.31662479035541,-5.));
#497=CARTESIAN_POINT('',(41.,3.31662479035541,-5.));
#498=CARTESIAN_POINT('',(41.,0.,-5.));
#499=CARTESIAN_POINT('',(46.45,3.31662479035541,-5.));
#500=CARTESIAN_POINT('',(31.9136751345948,3.31662479035541,-5.));
#501=CARTESIAN_POINT('',(46.45,0.,-5.));
#502=CARTESIAN_POINT('Origin',(46.45,0.,-6.00000000000001));
#503=CARTESIAN_POINT('Origin',(46.45,0.,0.));
#504=CARTESIAN_POINT('Origin',(41.,0.,-5.));
#505=CARTESIAN_POINT('Origin',(41.,0.,0.));
#506=CARTESIAN_POINT('Origin',(31.9136751345948,0.,0.));
#507=CARTESIAN_POINT('',(13.5773502691896,6.,0.));
#508=CARTESIAN_POINT('Origin',(13.5773502691896,0.,0.));
#509=CARTESIAN_POINT('Origin',(0.615,0.,0.));
#510=CARTESIAN_POINT('',(1.23,5.,0.));
#511=CARTESIAN_POINT('Origin',(1.23,0.,0.));
#512=CARTESIAN_POINT('',(0.,4.4523687170705,0.));
#513=CARTESIAN_POINT('Origin',(0.,0.,0.));
#514=CARTESIAN_POINT('Origin',(4.315,0.,0.));
#515=CARTESIAN_POINT('',(7.4,5.,0.));
#516=CARTESIAN_POINT('Origin',(7.4,0.,0.));
#517=CARTESIAN_POINT('Origin',(7.4,3.975,0.));
#518=CARTESIAN_POINT('Origin',(8.75,0.,0.));
#519=CARTESIAN_POINT('',(10.1,2.95,0.));
#520=CARTESIAN_POINT('Origin',(10.1,0.,0.));
#521=CARTESIAN_POINT('Origin',(10.1,3.975,0.));
#522=CARTESIAN_POINT('',(10.1,5.,0.));
#523=CARTESIAN_POINT('Origin',(10.1,0.,0.));
#524=CARTESIAN_POINT('Origin',(11.55,0.,0.));
#525=CARTESIAN_POINT('',(13.,5.,0.));
#526=CARTESIAN_POINT('Origin',(13.,0.,0.));
#527=CARTESIAN_POINT('Origin',(13.2886751345948,0.,0.));
#528=CARTESIAN_POINT('Origin',(66.72,0.,0.));
#529=CARTESIAN_POINT('',(74.44,2.35000000000001,0.));
#530=CARTESIAN_POINT('Origin',(74.44,0.,0.));
#531=CARTESIAN_POINT('Origin',(74.44,2.05000000000001,0.));
#532=CARTESIAN_POINT('',(74.44,1.75,0.));
#533=CARTESIAN_POINT('Origin',(74.44,0.,0.));
#534=CARTESIAN_POINT('Origin',(77.94,0.,0.));
#535=CARTESIAN_POINT('',(81.44,1.75,0.));
#536=CARTESIAN_POINT('Origin',(81.44,0.,0.));
#537=CARTESIAN_POINT('Origin',(81.44,0.875000000000005,0.));
#538=CARTESIAN_POINT('Origin',(0.,2.22618435853525,0.));
#539=UNCERTAINTY_MEASURE_WITH_UNIT(LENGTH_MEASURE(0.01),#543,
'DISTANCE_ACCURACY_VALUE',
'Maximum model space distance between geometric entities at asserted c
onnectivities');
#540=UNCERTAINTY_MEASURE_WITH_UNIT(LENGTH_MEASURE(1.E-6),#543,
'DISTANCE_ACCURACY_VALUE',
'Maximum model space distance between geometric entities at asserted c
onnectivities');
#541=(
GEOMETRIC_REPRESENTATION_CONTEXT(3)
GLOBAL_UNCERTAINTY_ASSIGNED_CONTEXT((#539))
GLOBAL_UNIT_ASSIGNED_CONTEXT((#543,#546,#544))
REPRESENTATION_CONTEXT('','3D')
);
#542=(
GEOMETRIC_REPRESENTATION_CONTEXT(3)
GLOBAL_UNCERTAINTY_ASSIGNED_CONTEXT((#540))
GLOBAL_UNIT_ASSIGNED_CONTEXT((#543,#546,#544))
REPRESENTATION_CONTEXT('','3D')
);
#543=(
LENGTH_UNIT()
NAMED_UNIT(*)
SI_UNIT(.MILLI.,.METRE.)
);
#544=(
NAMED_UNIT(*)
SI_UNIT($,.STERADIAN.)
SOLID_ANGLE_UNIT()
);
#545=DIMENSIONAL_EXPONENTS(0.,0.,0.,0.,0.,0.,0.);
#546=(
CONVERSION_BASED_UNIT('degree',#548)
NAMED_UNIT(#545)
PLANE_ANGLE_UNIT()
);
#547=(
NAMED_UNIT(*)
PLANE_ANGLE_UNIT()
SI_UNIT($,.RADIAN.)
);
#548=PLANE_ANGLE_MEASURE_WITH_UNIT(PLANE_ANGLE_MEASURE(0.01745329252),#547);
#549=SHAPE_DEFINITION_REPRESENTATION(#550,#551);
#550=PRODUCT_DEFINITION_SHAPE('',$,#553);
#551=SHAPE_REPRESENTATION('',(#310),#541);
#552=PRODUCT_DEFINITION_CONTEXT('part definition',#557,'design');
#553=PRODUCT_DEFINITION('AF0140','AF0140',#554,#552);
#554=PRODUCT_DEFINITION_FORMATION('',$,#559);
#555=PRODUCT_RELATED_PRODUCT_CATEGORY('AF0140','AF0140',(#559));
#556=APPLICATION_PROTOCOL_DEFINITION('international standard',
'automotive_design',2009,#557);
#557=APPLICATION_CONTEXT(
'Core Data for Automotive Mechanical Design Process');
#558=PRODUCT_CONTEXT('part definition',#557,'mechanical');
#559=PRODUCT('AF0140','AF0140',$,(#558));
#560=PRESENTATION_STYLE_ASSIGNMENT((#563));
#561=PRESENTATION_STYLE_ASSIGNMENT((#564));
#562=PRESENTATION_STYLE_ASSIGNMENT((#565));
#563=SURFACE_STYLE_USAGE(.BOTH.,#566);
#564=SURFACE_STYLE_USAGE(.BOTH.,#567);
#565=SURFACE_STYLE_USAGE(.BOTH.,#568);
#566=SURFACE_SIDE_STYLE($,(#569));
#567=SURFACE_SIDE_STYLE($,(#570));
#568=SURFACE_SIDE_STYLE($,(#571));
#569=SURFACE_STYLE_FILL_AREA(#572);
#570=SURFACE_STYLE_FILL_AREA(#573);
#571=SURFACE_STYLE_FILL_AREA(#574);
#572=FILL_AREA_STYLE($,(#575));
#573=FILL_AREA_STYLE($,(#576));
#574=FILL_AREA_STYLE($,(#577));
#575=FILL_AREA_STYLE_COLOUR($,#578);
#576=FILL_AREA_STYLE_COLOUR($,#579);
#577=FILL_AREA_STYLE_COLOUR($,#580);
#578=COLOUR_RGB('',0.63921568627451,0.63921568627451,0.686274509803922);
#579=COLOUR_RGB('',0.149019607843137,0.129411764705882,0.125490196078431);
#580=COLOUR_RGB('',0.32156862745098,0.32156862745098,0.32156862745098);
ENDSEC;
END-ISO-10303-21;
